Hysteria
TUNING: Open C#/Db
C# - G# - C# - F - G# - C#

p.Mute - Palm Mute

p - Pull-off
h - Hammer

Intro:

Rhythm
C#|-0--0--0-0---
G#|-0--0--0-0---
F |-x--x--x-x---  x4
C#|-5--5--9-9---
G#|-5--5--9-9---
C#|-5--5--9-9---

Lead Part
C#|-x/x/x---x/x-/x--
G#|-5/7/2---9/12/7--
F |-0/0/0---0/0-/0--
C#|-x/x/x---x/x-/x-- x2
G#|-5/7/2---9/12/7--
C#|-0/0/0---0/0-/0--

C#|-x--x--x-x--x--
G#|-12/10/9/10/9--
F |-0--0--0-0--0-- 
C#|-x--x--x-x--x-- x3
G#|-12/10/9/10/9--
C#|-0--0--0-0--0--


C#|-x--
G#|-12~
F |-0-- 
C#|-x--
G#|-12~
C#|-0--


Verse1

How much longer..
C#|-x-x-x-0--0--x-x-x-0--0--
G#|-x-x-x-0--0--x-x-x-0--0--
F |-x-x-x-x--x--x-x-x-x--x--
C#|-5-5-5-7--7--9-9-9-11-11-
G#|-5-5-5-5--5--9-9-9-9--9--
C#|-5-5-5-5--5--9-9-9-9--9--
    pm          pm

Stay in this corner..
C#|-x-x-x-0--0--x-x-x-0--0--
G#|-x-x-x-0--0--x-x-x-0--0--
F |-x-x-x-x--x--x-x-x-x--x--
C#|-5-5-5-7--7--9-9-9-11-11-
G#|-5-5-5-5--5--9-9-9-9--9--
C#|-5-5-5-5--5--9-9-9-9--9--
    pm          pm

If this is not it...
C#|-x-x-x-0--0--x-x-x-0--0--
G#|-x-x-x-0--0--x-x-x-0--0--
F |-x-x-x-x--x--x-x-x-x--x--
C#|-5-5-5-7--7--9-9-9-11-11-
G#|-5-5-5-5--5--9-9-9-9--9--
C#|-5-5-5-5--5--9-9-9-9--9--
    pm          pm

'cause I think... 
think ill be missing you
C#|-x-x-x-0--0--x-x-x-0--0--
G#|-x-x-x-0--0--x-x-x-0--0--
F |-x-x-x-x--x--x-x-x-x--x--
C#|-5-5-5-7--7--9-9-9-11-11-
G#|-5-5-5-5--5--9-9-9-9--9--
C#|-5-5-5-5--5--9-9-9-9--9--
    pm          pm

Short Intro
C#|-0--0--0-0---
G#|-0--0--0-0---
F |-x--x--x-x---  x2
C#|-5--5--9-9---
G#|-5--5--9-9---
C#|-5--5--9-9---

Verse 2

Hear me out..
C#|-x-x-x-0--0--x-x-x-0--0--
G#|-x-x-x-0--0--x-x-x-0--0--
F |-x-x-x-x--x--x-x-x-x--x--
C#|-5-5-5-7--7--9-9-9-11-11-
G#|-5-5-5-5--5--9-9-9-9--9--
C#|-5-5-5-5--5--9-9-9-9--9--
    pm          pm

but its all your doing...
C#|-x-x-x-0--0--x-x-x-0--0--
G#|-x-x-x-0--0--x-x-x-0--0--
F |-x-x-x-x--x--x-x-x-x--x--
C#|-5-5-5-7--7--9-9-9-11-11-
G#|-5-5-5-5--5--9-9-9-9--9--
C#|-5-5-5-5--5--9-9-9-9--9--
    pm          pm

Uneven hope..
C#|-x-x-x-0--0--x-x-x-0--0--
G#|-x-x-x-0--0--x-x-x-0--0--
F |-x-x-x-x--x--x-x-x-x--x--
C#|-5-5-5-7--7--9-9-9-11-11-
G#|-5-5-5-5--5--9-9-9-9--9--
C#|-5-5-5-5--5--9-9-9-9--9--
    pm          pm

Who said you were..the only one.
C#|-x-x-x-0--0--x-0-0--
G#|-x-x-x-0--0--x-0-0--
F |-x-x-x-x--x--x-x-x--
C#|-5-5-5-7--7--2-0-5--
G#|-5-5-5-5--5--2-0-5--
C#|-5-5-5-5--5--2-0-5--
    pm          


Chorus:
C#|-0-0-0-0-0-0-0-0-0---0-x-----x-0-5--
G#|-0-0-0-0-0-0-0-0-0---0-x-----x-0-5--
F |-x-x-x-x-x-x-x-x-x-x-0-x-----x-0-5--  
C#|-9-9-9-9-9-5-5-5-5-2-0-2---x-2-0-5--  X2
G#|-9-9-9-9-9-5-5-5-5-2-0-2---x-2-0-5--
C#|-9-9-9-9-9-5-5-5-5-2-0-2---x-2-0-5--

Verse 3
C#|-0-0-0-0--0--0-0-0-0-7-----------
G#|-0-0-0-0--0--0-0-0-0-7-----------
F |-x-x-x-x--x--x-x-x-x-7-----------
C#|-9-9-9-11-11-5-5-5-5-7------7h9-- X2
G#|-9-9-9-9--9--5-5-5-5-5--7h9------
C#|-9-9-9-9--9--5-5-5-5-5-----------
      pm          pm

Verse 3

Here me dear..
C#|-0-0-0-0--0--0-0-0-0-7-----------
G#|-0-0-0-0--0--0-0-0-0-7-----------
F |-x-x-x-x--x--x-x-x-x-7-----------
C#|-9-9-9-11-11-5-5-5-5-7------7h9-- X2
G#|-9-9-9-9--9--5-5-5-5-5--7h9------
C#|-9-9-9-9--9--5-5-5-5-5-----------
      pm          pm

Happy now?
C#|-x-0-0--
G#|-x-0-0--
F |-x-0-x-
C#|-2-0-5--
G#|-2-0-5--
C#|-2-0-5--

Chorus 2
C#|-0-0-0-0-0-0-0-0-0---0-x-----x-0-5--
G#|-0-0-0-0-0-0-0-0-0---0-x-----x-0-5--
F |-x-x-x-x-x-x-x-x-x-x-0-x-----x-0-5--  
C#|-9-9-9-9-9-5-5-5-5-2-0-2---x-2-0-5--  X2
G#|-9-9-9-9-9-5-5-5-5-2-0-2---x-2-0-5--
C#|-9-9-9-9-9-5-5-5-5-2-0-2---x-2-0-5--

Chorus with Palabok(No Vocal parts)
C#|-0-0-0-0-0-0-0-0-0--0-0-0-0--0-0-0-00--------------------
G#|-0-0-0-0-0-0-0-0-0--0-0-0-0--0-0-0-0---------------------
F |-x-x-x-x-x-x--x--x--x-x-0-x--x-x-x-x----x-x-x---x-2-0-5--  
C#|-9-9-9-9-9-11-12-11-5-5-5-5--7-9-7-x----2-0-2---x-2-0-5--  X2
G#|-9-9-9-9-9-9--9--9--5-5-5-5--5-5-5-9----2-0-2---x-2-0-5--
C#|-9-9-9-9-9-9--9--9--5-5-5-5--5-5-5-5----2-0-2---x-2-0-5--

Super Outro:
C#|----------------------------
G#|----------------------------
F |-x-x--x--x---x-x--x--x---x-x
C#|-9-11-12/11--9-11-12/11--7h9
G#|-9-11-12/11--9-11-12/11--7h9
C#|-9-11-12/11--9-11-12/11--7h9

C#|-------------0-0-0-0--
G#|-------------0-0-0-0--
F |-x-x--x--x---x-x-x-x--
C#|-9-11-12/11--7-7-7-7--
G#|-9-11-12/11--7-7-7-7--
C#|-9-11-12/11--7-7-7-7--

C#|------------------0-
G#|------------------0-
F |------------------0-
C#|------------------x-
G#|--7-9-7--5-7-5--0-2-
C#|--------------------


End

 2019 The Differential